Nerfo forum: A gaming community

Welcome hope you have fun here. this is the forum of Nerfo forum.
 
HomeFAQPortalCalendarSearchMemberlistRegisterUsergroupsLog in

Share | 
 

 Chibi Tablature: Songbird (Original Song)

Go down 
AuthorMessage
Chibi
Zora


Male
Number of posts : 40
Age : 25
Location : In your pants
Occupation : Student
Biography : Mew? ER! Woof <.<
Registration date : 2009-06-30

PostSubject: Chibi Tablature: Songbird (Original Song)   Thu Jul 02, 2009 2:51 pm

The small solo to my song, "Songbird." Tell me what you think. <:

................................................................................Repeat hammer ons x4
................................................................................~~~~~~~~~~~~~
e |--------------------------------------------------------------0--3--5--0--3--5------------------|
B|------------------------------------------7^--5---------------------------------------------------|
G|--7^--5-------------7^--5----------------------7--5--7---------------------------------------|
D|-----------7--5--7-----------7--5--7-----------------------------------------------------------|
A|----------------------------------------------------------------------------------------------------|
E|----------------------------------------------------------------------------------------------------|

e |----------------------------------------------------------------------------------------------------|
B|----------------------------------------------------------------------------------------------------|
G|--7^--5-------------7^--5-------------7^--5--------------7^--5----------------------------|
D|-----------7--5--7-----------7--5--7------------7--5--7------------7--5--7--7---------------|
A|-----------------------------------------------------------------------------------7----------------|
E|----------------------------------------------------------------------------------------------------|


If anyone here play guitar the tempo is pretty fast and increases at the hammer ons. The "^" notes are bends and the last chord is played and slided down the nect until D:1 A:1.
Back to top Go down
View user profile http://fadedpawprints.thekokiris.net/forun
Ashpelt
Goron
avatar

Male
Number of posts : 205
Age : 26
Location : at my computer
Occupation : still in school
Registration date : 2009-07-20

Role play boards
Hyrule Town:
Warrior cats:
Health:
543900258/1  (543900258/1)

PostSubject: Re: Chibi Tablature: Songbird (Original Song)   Mon Jul 27, 2009 10:49 am

i can't read tabs Sad
Back to top Go down
View user profile http://warriorcatsroleplayforum.webs.com
 
Chibi Tablature: Songbird (Original Song)
Back to top 
Page 1 of 1
 Similar topics
-
» need help writing a song
» did you know that there is a limbo song?
» First Person That Comes To Your Mind When You Hear A Love SONG!
» my fravortie song.......lolololol
» Song about Bobby Fischer

Permissions in this forum:You cannot reply to topics in this forum
Nerfo forum: A gaming community :: General Stuff + Nerfo :: General Talking-
Jump to: